ISO-10303-21;
HEADER;
FILE_DESCRIPTION (( 'STEP AP214' ),
    '1' );
FILE_NAME ('FULLVAC JF1CF40.STEP',
    '2019-03-29T13:49:49',
    ( '' ),
    ( '' ),
    'SwSTEP 2.0',
    'SolidWorks 2017',
    '' );
FILE_SCHEMA (( 'AUTOMOTIVE_DESIGN' ));
ENDSEC;

DATA;
#1 = FACE_OUTER_BOUND ( 'NONE', #24, .T. ) ;
#2 = CIRCLE ( 'NONE', #31, 20.99999999999999600 ) ;
#3 = CARTESIAN_POINT ( 'NONE',  ( 2.499999999999997800, 0.0000000000000000000, 0.0000000000000000000 ) ) ;
#4 = DIRECTION ( 'NONE',  ( 1.000000000000000000, 0.0000000000000000000, 0.0000000000000000000 ) ) ;
#5 = AXIS2_PLACEMENT_3D ( 'NONE', #96, #119, #82 ) ;
#6 = FILL_AREA_STYLE ('',( #130 ) ) ;
#7 = CARTESIAN_POINT ( 'NONE',  ( 2.499999999999997800, 0.0000000000000000000, 0.0000000000000000000 ) ) ;
#8 =( GEOMETRIC_REPRESENTATION_CONTEXT ( 3 ) GLOBAL_UNCERTAINTY_ASSIGNED_CONTEXT ( ( #88 ) ) GLOBAL_UNIT_ASSIGNED_CONTEXT ( ( #65, #30, #28 ) ) REPRESENTATION_CONTEXT ( 'NONE', 'WORKASPACE' ) );
#9 = PRODUCT_CONTEXT ( 'NONE', #94, 'mechanical' ) ;
#10 = PRODUCT_DEFINITION_FORMATION_WITH_SPECIFIED_SOURCE ( 'ANY', '', #61, .NOT_KNOWN. ) ;
#11 = STYLED_ITEM ( 'NONE', ( #131 ), #53 ) ;
#12 = ORIENTED_EDGE ( 'NONE', *, *, #50, .T. ) ;
#13 = CIRCLE ( 'NONE', #86, 24.10000000000000500 ) ;
#14 = SURFACE_STYLE_FILL_AREA ( #6 ) ;
#15 = CARTESIAN_POINT ( 'NONE',  ( 1.249999999999998000, 0.0000000000000000000, 0.0000000000000000000 ) ) ;
#16 = DIRECTION ( 'NONE',  ( 0.0000000000000000000, 0.0000000000000000000, -1.000000000000000000 ) ) ;
#17 = DIRECTION ( 'NONE',  ( 0.0000000000000000000, 0.0000000000000000000, -1.000000000000000000 ) ) ;
#18 =( NAMED_UNIT ( * ) PLANE_ANGLE_UNIT ( ) SI_UNIT ( $, .RADIAN. ) );
#19 = FACE_OUTER_BOUND ( 'NONE', #103, .T. ) ;
#20 =( NAMED_UNIT ( * ) PLANE_ANGLE_UNIT ( ) SI_UNIT ( $, .RADIAN. ) );
#21 = CARTESIAN_POINT ( 'NONE',  ( 0.0000000000000000000, 0.0000000000000000000, -20.99999999999999600 ) ) ;
#22 = COLOUR_RGB ( '',0.3215686274509803600, 0.3215686274509803600, 0.3215686274509803600 ) ;
#23 = ADVANCED_FACE ( 'NONE', ( #102, #33 ), #129, .T. ) ;
#24 = EDGE_LOOP ( 'NONE', ( #29 ) ) ;
#25 = ORIENTED_EDGE ( 'NONE', *, *, #84, .F. ) ;
#26 =( LENGTH_UNIT ( ) NAMED_UNIT ( * ) SI_UNIT ( .MILLI., .METRE. ) );
#27 = PRODUCT_RELATED_PRODUCT_CATEGORY ( 'part', '', ( #61 ) ) ;
#28 =( NAMED_UNIT ( * ) SI_UNIT ( $, .STERADIAN. ) SOLID_ANGLE_UNIT ( ) );
#29 = ORIENTED_EDGE ( 'NONE', *, *, #43, .F. ) ;
#30 =( NAMED_UNIT ( * ) PLANE_ANGLE_UNIT ( ) SI_UNIT ( $, .RADIAN. ) );
#31 = AXIS2_PLACEMENT_3D ( 'NONE', #7, #115, #51 ) ;
#32 = PLANE ( 'NONE',  #5 ) ;
#33 = FACE_OUTER_BOUND ( 'NONE', #42, .T. ) ;
#34 = ADVANCED_FACE ( 'NONE', ( #68, #49 ), #77, .T. ) ;
#35 = UNCERTAINTY_MEASURE_WITH_UNIT (LENGTH_MEASURE( 1.000000000000000100E-005 ), #26, 'distance_accuracy_value', 'NONE');
#36 = STYLED_ITEM ( 'NONE', ( #122 ), #55 ) ;
#37 = SURFACE_SIDE_STYLE ('',( #14 ) ) ;
#38 = ORIENTED_EDGE ( 'NONE', *, *, #67, .F. ) ;
#39 = DIRECTION ( 'NONE',  ( 1.000000000000000000, 0.0000000000000000000, 0.0000000000000000000 ) ) ;
#40 = PRODUCT_DEFINITION_SHAPE ( 'NONE', 'NONE',  #104 ) ;
#41 = FILL_AREA_STYLE_COLOUR ( '', #126 ) ;
#42 = EDGE_LOOP ( 'NONE', ( #12 ) ) ;
#43 = EDGE_CURVE ( 'NONE', #62, #62, #127, .T. ) ;
#44 = VERTEX_POINT ( 'NONE', #58 ) ;
#45 =( GEOMETRIC_REPRESENTATION_CONTEXT ( 3 ) GLOBAL_UNCERTAINTY_ASSIGNED_CONTEXT ( ( #76 ) ) GLOBAL_UNIT_ASSIGNED_CONTEXT ( ( #60, #20, #133 ) ) REPRESENTATION_CONTEXT ( 'NONE', 'WORKASPACE' ) );
#46 =( NAMED_UNIT ( * ) SI_UNIT ( $, .STERADIAN. ) SOLID_ANGLE_UNIT ( ) );
#47 = EDGE_LOOP ( 'NONE', ( #100 ) ) ;
#48 = APPLICATION_PROTOCOL_DEFINITION ( 'draft international standard', 'automotive_design', 1998, #109 ) ;
#49 = FACE_OUTER_BOUND ( 'NONE', #47, .T. ) ;
#50 = EDGE_CURVE ( 'NONE', #90, #90, #13, .T. ) ;
#51 = DIRECTION ( 'NONE',  ( 0.0000000000000000000, 0.0000000000000000000, -1.000000000000000000 ) ) ;
#52 = AXIS2_PLACEMENT_3D ( 'NONE', #79, #105, #17 ) ;
#53 = ADVANCED_BREP_SHAPE_REPRESENTATION ( 'FULLVAC JF1CF40', ( #55, #121 ), #45 ) ;
#54 =( GEOMETRIC_REPRESENTATION_CONTEXT ( 3 ) GLOBAL_UNCERTAINTY_ASSIGNED_CONTEXT ( ( #35 ) ) GLOBAL_UNIT_ASSIGNED_CONTEXT ( ( #26, #18, #46 ) ) REPRESENTATION_CONTEXT ( 'NONE', 'WORKASPACE' ) );
#55 = MANIFOLD_SOLID_BREP ( 'Volumenk\S\vrper1', #125 ) ;
#56 = MECHANICAL_DESIGN_GEOMETRIC_PRESENTATION_REPRESENTATION (  '', ( #11 ), #8 ) ;
#57 = DIRECTION ( 'NONE',  ( 1.000000000000000000, 0.0000000000000000000, 0.0000000000000000000 ) ) ;
#58 = CARTESIAN_POINT ( 'NONE',  ( 2.499999999999997800, 0.0000000000000000000, -20.99999999999999600 ) ) ;
#59 = CIRCLE ( 'NONE', #75, 24.10000000000000500 ) ;
#60 =( LENGTH_UNIT ( ) NAMED_UNIT ( * ) SI_UNIT ( .MILLI., .METRE. ) );
#61 = PRODUCT ( 'FULLVAC JF1CF40', 'FULLVAC JF1CF40', '', ( #9 ) ) ;
#62 = VERTEX_POINT ( 'NONE', #21 ) ;
#63 = ORIENTED_EDGE ( 'NONE', *, *, #67, .T. ) ;
#64 = DIRECTION ( 'NONE',  ( 1.000000000000000000, 0.0000000000000000000, 0.0000000000000000000 ) ) ;
#65 =( LENGTH_UNIT ( ) NAMED_UNIT ( * ) SI_UNIT ( .MILLI., .METRE. ) );
#66 = VERTEX_POINT ( 'NONE', #108 ) ;
#67 = EDGE_CURVE ( 'NONE', #44, #44, #2, .T. ) ;
#68 = FACE_OUTER_BOUND ( 'NONE', #111, .T. ) ;
#69 = DIRECTION ( 'NONE',  ( 1.000000000000000000, 0.0000000000000000000, 0.0000000000000000000 ) ) ;
#70 = EDGE_LOOP ( 'NONE', ( #92 ) ) ;
#71 = AXIS2_PLACEMENT_3D ( 'NONE', #15, #39, #87 ) ;
#72 = FACE_BOUND ( 'NONE', #70, .T. ) ;
#73 = SHAPE_DEFINITION_REPRESENTATION ( #40, #53 ) ;
#74 = ADVANCED_FACE ( 'NONE', ( #98, #1 ), #113, .F. ) ;
#75 = AXIS2_PLACEMENT_3D ( 'NONE', #110, #57, #132 ) ;
#76 = UNCERTAINTY_MEASURE_WITH_UNIT (LENGTH_MEASURE( 1.000000000000000100E-005 ), #60, 'distance_accuracy_value', 'NONE');
#77 = CYLINDRICAL_SURFACE ( 'NONE', #71, 24.10000000000000500 ) ;
#78 = PRESENTATION_LAYER_ASSIGNMENT (  '', '', ( #36 ) ) ;
#79 = CARTESIAN_POINT ( 'NONE',  ( 2.499999999999997800, 22.54999999999999700, 0.0000000000000000000 ) ) ;
#80 = CARTESIAN_POINT ( 'NONE',  ( 0.0000000000000000000, 0.0000000000000000000, 0.0000000000000000000 ) ) ;
#81 = DIRECTION ( 'NONE',  ( 0.0000000000000000000, 0.0000000000000000000, 1.000000000000000000 ) ) ;
#82 = DIRECTION ( 'NONE',  ( 0.0000000000000000000, 0.0000000000000000000, 1.000000000000000000 ) ) ;
#83 = ADVANCED_FACE ( 'NONE', ( #72, #19 ), #32, .T. ) ;
#84 = EDGE_CURVE ( 'NONE', #66, #66, #59, .T. ) ;
#85 = AXIS2_PLACEMENT_3D ( 'NONE', #80, #64, #16 ) ;
#86 = AXIS2_PLACEMENT_3D ( 'NONE', #3, #4, #89 ) ;
#87 = DIRECTION ( 'NONE',  ( 0.0000000000000000000, 0.0000000000000000000, -1.000000000000000000 ) ) ;
#88 = UNCERTAINTY_MEASURE_WITH_UNIT (LENGTH_MEASURE( 1.000000000000000100E-005 ), #65, 'distance_accuracy_value', 'NONE');
#89 = DIRECTION ( 'NONE',  ( 0.0000000000000000000, 0.0000000000000000000, -1.000000000000000000 ) ) ;
#90 = VERTEX_POINT ( 'NONE', #123 ) ;
#91 = SURFACE_STYLE_USAGE ( .BOTH. , #37 ) ;
#92 = ORIENTED_EDGE ( 'NONE', *, *, #43, .T. ) ;
#93 = DIRECTION ( 'NONE',  ( 0.0000000000000000000, 0.0000000000000000000, -1.000000000000000000 ) ) ;
#94 = APPLICATION_CONTEXT ( 'automotive_design' ) ;
#95 = MECHANICAL_DESIGN_GEOMETRIC_PRESENTATION_REPRESENTATION (  '', ( #36 ), #54 ) ;
#96 = CARTESIAN_POINT ( 'NONE',  ( -8.321950000000000100E-016, 22.54999999999999700, 0.0000000000000000000 ) ) ;
#97 = FILL_AREA_STYLE ('',( #41 ) ) ;
#98 = FACE_OUTER_BOUND ( 'NONE', #134, .T. ) ;
#99 = ORIENTED_EDGE ( 'NONE', *, *, #84, .T. ) ;
#100 = ORIENTED_EDGE ( 'NONE', *, *, #50, .F. ) ;
#101 = PRODUCT_DEFINITION_CONTEXT ( 'detailed design', #109, 'design' ) ;
#102 = FACE_BOUND ( 'NONE', #128, .T. ) ;
#103 = EDGE_LOOP ( 'NONE', ( #25 ) ) ;
#104 = PRODUCT_DEFINITION ( 'UNKNOWN', '', #10, #101 ) ;
#105 = DIRECTION ( 'NONE',  ( 1.000000000000000000, -0.0000000000000000000, 0.0000000000000000000 ) ) ;
#106 = SURFACE_STYLE_FILL_AREA ( #97 ) ;
#107 = APPLICATION_PROTOCOL_DEFINITION ( 'draft international standard', 'automotive_design', 1998, #94 ) ;
#108 = CARTESIAN_POINT ( 'NONE',  ( -1.734723475976807100E-015, 0.0000000000000000000, -24.10000000000000500 ) ) ;
#109 = APPLICATION_CONTEXT ( 'automotive_design' ) ;
#110 = CARTESIAN_POINT ( 'NONE',  ( -1.734723475976807100E-015, 0.0000000000000000000, 0.0000000000000000000 ) ) ;
#111 = EDGE_LOOP ( 'NONE', ( #99 ) ) ;
#112 = CARTESIAN_POINT ( 'NONE',  ( 1.249999999999998900, 0.0000000000000000000, 0.0000000000000000000 ) ) ;
#113 = CYLINDRICAL_SURFACE ( 'NONE', #120, 20.99999999999999600 ) ;
#114 = DIRECTION ( 'NONE',  ( 1.000000000000000000, 0.0000000000000000000, 0.0000000000000000000 ) ) ;
#115 = DIRECTION ( 'NONE',  ( -1.000000000000000000, -0.0000000000000000000, -0.0000000000000000000 ) ) ;
#116 = SURFACE_STYLE_USAGE ( .BOTH. , #124 ) ;
#117 = PRESENTATION_LAYER_ASSIGNMENT (  '', '', ( #11 ) ) ;
#118 = CARTESIAN_POINT ( 'NONE',  ( 0.0000000000000000000, 0.0000000000000000000, 0.0000000000000000000 ) ) ;
#119 = DIRECTION ( 'NONE',  ( -1.000000000000000000, 0.0000000000000000000, 0.0000000000000000000 ) ) ;
#120 = AXIS2_PLACEMENT_3D ( 'NONE', #112, #114, #93 ) ;
#121 = AXIS2_PLACEMENT_3D ( 'NONE', #118, #81, #69 ) ;
#122 = PRESENTATION_STYLE_ASSIGNMENT (( #91 ) ) ;
#123 = CARTESIAN_POINT ( 'NONE',  ( 2.499999999999997800, 0.0000000000000000000, -24.10000000000000500 ) ) ;
#124 = SURFACE_SIDE_STYLE ('',( #106 ) ) ;
#125 = CLOSED_SHELL ( 'NONE', ( #23, #74, #34, #83 ) ) ;
#126 = COLOUR_RGB ( '',0.3215686274509803600, 0.3215686274509803600, 0.3215686274509803600 ) ;
#127 = CIRCLE ( 'NONE', #85, 20.99999999999999600 ) ;
#128 = EDGE_LOOP ( 'NONE', ( #63 ) ) ;
#129 = PLANE ( 'NONE',  #52 ) ;
#130 = FILL_AREA_STYLE_COLOUR ( '', #22 ) ;
#131 = PRESENTATION_STYLE_ASSIGNMENT (( #116 ) ) ;
#132 = DIRECTION ( 'NONE',  ( 0.0000000000000000000, 0.0000000000000000000, -1.000000000000000000 ) ) ;
#133 =( NAMED_UNIT ( * ) SI_UNIT ( $, .STERADIAN. ) SOLID_ANGLE_UNIT ( ) );
#134 = EDGE_LOOP ( 'NONE', ( #38 ) ) ;
ENDSEC;
END-ISO-10303-21;
